  0
SECTION
  2
HEADER
  9
$ACADVER
  1
AC1015
  9
$ACADMAINTVER
 70
     6
  9
$DWGCODEPAGE
  3
ANSI_1252
  9
$INSBASE
 10
0.0
 20
0.0
 30
0.0
  9
$EXTMIN
 10
-26.27177324214369
 20
-64.42249136117289
 30
-0.0000000000112498
  9
$EXTMAX
 10
163.6005910264697
 20
43.00754330876634
 30
0.0000000000002956
  9
$LIMMIN
 10
0.0
 20
0.0
  9
$LIMMAX
 10
410.0
 20
287.0
  9
$ORTHOMODE
 70
     1
  9
$REGENMODE
 70
     1
  9
$FILLMODE
 70
     1
  9
$QTEXTMODE
 70
     0
  9
$MIRRTEXT
 70
     1
  9
$LTSCALE
 40
25.0
  9
$ATTMODE
 70
     1
  9
$TEXTSIZE
 40
2.5
  9
$TRACEWID
 40
0.6
  9
$TEXTSTYLE
  7
Standard
  9
$CLAYER
  8
0
  9
$CELTYPE
  6
ByLayer
  9
$CECOLOR
 62
   256
  9
$CELTSCALE
 40
1.0
  9
$DISPSILH
 70
     0
  9
$DIMSCALE
 40
1.0
  9
$DIMASZ
 40
3.5
  9
$DIMEXO
 40
0.1
  9
$DIMDLI
 40
7.0
  9
$DIMRND
 40
0.0
  9
$DIMDLE
 40
0.0
  9
$DIMEXE
 40
1.8
  9
$DIMTP
 40
0.0
  9
$DIMTM
 40
0.0
  9
$DIMTXT
 40
3.5
  9
$DIMCEN
 40
1.5
  9
$DIMTSZ
 40
0.0
  9
$DIMTOL
 70
     0
  9
$DIMLIM
 70
     0
  9
$DIMTIH
 70
     0
  9
$DIMTOH
 70
     0
  9
$DIMSE1
 70
     0
  9
$DIMSE2
 70
     0
  9
$DIMTAD
 70
     1
  9
$DIMZIN
 70
     0
  9
$DIMBLK
  1

  9
$DIMASO
 70
     0
  9
$DIMSHO
 70
     1
  9
$DIMPOST
  1

  9
$DIMAPOST
  1

  9
$DIMALT
 70
     0
  9
$DIMALTD
 70
     2
  9
$DIMALTF
 40
25.4
  9
$DIMLFAC
 40
1.0
  9
$DIMTOFL
 70
     0
  9
$DIMTVP
 40
0.0
  9
$DIMTIX
 70
     0
  9
$DIMSOXD
 70
     0
  9
$DIMSAH
 70
     0
  9
$DIMBLK1
  1

  9
$DIMBLK2
  1

  9
$DIMSTYLE
  2
STANDARD
  9
$DIMCLRD
 70
     0
  9
$DIMCLRE
 70
     0
  9
$DIMCLRT
 70
     0
  9
$DIMTFAC
 40
1.0
  9
$DIMGAP
 40
0.09
  9
$DIMJUST
 70
     0
  9
$DIMSD1
 70
     0
  9
$DIMSD2
 70
     0
  9
$DIMTOLJ
 70
     1
  9
$DIMTZIN
 70
     0
  9
$DIMALTZ
 70
     0
  9
$DIMALTTZ
 70
     0
  9
$DIMUPT
 70
     0
  9
$DIMDEC
 70
     4
  9
$DIMTDEC
 70
     4
  9
$DIMALTU
 70
     2
  9
$DIMALTTD
 70
     2
  9
$DIMTXSTY
  7
Standard
  9
$DIMAUNIT
 70
     0
  9
$DIMADEC
 70
     0
  9
$DIMALTRND
 40
0.0
  9
$DIMAZIN
 70
     0
  9
$DIMDSEP
 70
    46
  9
$DIMATFIT
 70
     3
  9
$DIMFRAC
 70
     0
  9
$DIMLDRBLK
  1

  9
$DIMLUNIT
 70
     2
  9
$DIMLWD
 70
    -2
  9
$DIMLWE
 70
    -2
  9
$DIMTMOVE
 70
     0
  9
$LUNITS
 70
     2
  9
$LUPREC
 70
     1
  9
$SKETCHINC
 40
0.1
  9
$FILLETRAD
 40
0.0
  9
$AUNITS
 70
     0
  9
$AUPREC
 70
     0
  9
$MENU
  1
acad
  9
$ELEVATION
 40
0.0
  9
$PELEVATION
 40
0.0
  9
$THICKNESS
 40
0.0
  9
$LIMCHECK
 70
     0
  9
$CHAMFERA
 40
1.0
  9
$CHAMFERB
 40
1.0
  9
$CHAMFERC
 40
0.0
  9
$CHAMFERD
 40
0.0
  9
$SKPOLY
 70
     0
  9
$TDCREATE
 40
2449016.483152083
  9
$TDUCREATE
 40
2449016.441485416
  9
$TDUPDATE
 40
2454522.437222673
  9
$TDUUPDATE
 40
2454522.395556007
  9
$TDINDWG
 40
0.1616819792
  9
$TDUSRTIMER
 40
0.1616818634
  9
$USRTIMER
 70
     1
  9
$ANGBASE
 50
0.0
  9
$ANGDIR
 70
     0
  9
$PDMODE
 70
     0
  9
$PDSIZE
 40
0.0
  9
$PLINEWID
 40
0.0
  9
$SPLFRAME
 70
     0
  9
$SPLINETYPE
 70
     6
  9
$SPLINESEGS
 70
     8
  9
$HANDSEED
  5
2D4
  9
$SURFTAB1
 70
     6
  9
$SURFTAB2
 70
     6
  9
$SURFTYPE
 70
     6
  9
$SURFU
 70
     6
  9
$SURFV
 70
     6
  9
$UCSBASE
  2

  9
$UCSNAME
  2

  9
$UCSORG
 10
0.0
 20
0.0
 30
0.0
  9
$UCSXDIR
 10
1.0
 20
0.0
 30
0.0
  9
$UCSYDIR
 10
0.0
 20
1.0
 30
0.0
  9
$UCSORTHOREF
  2

  9
$UCSORTHOVIEW
 70
     0
  9
$UCSORGTOP
 10
0.0
 20
0.0
 30
0.0
  9
$UCSORGBOTTOM
 10
0.0
 20
0.0
 30
0.0
  9
$UCSORGLEFT
 10
0.0
 20
0.0
 30
0.0
  9
$UCSORGRIGHT
 10
0.0
 20
0.0
 30
0.0
  9
$UCSORGFRONT
 10
0.0
 20
0.0
 30
0.0
  9
$UCSORGBACK
 10
0.0
 20
0.0
 30
0.0
  9
$PUCSBASE
  2

  9
$PUCSNAME
  2

  9
$PUCSORG
 10
0.0
 20
0.0
 30
0.0
  9
$PUCSXDIR
 10
1.0
 20
0.0
 30
0.0
  9
$PUCSYDIR
 10
0.0
 20
1.0
 30
0.0
  9
$PUCSORTHOREF
  2

  9
$PUCSORTHOVIEW
 70
     0
  9
$PUCSORGTOP
 10
0.0
 20
0.0
 30
0.0
  9
$PUCSORGBOTTOM
 10
0.0
 20
0.0
 30
0.0
  9
$PUCSORGLEFT
 10
0.0
 20
0.0
 30
0.0
  9
$PUCSORGRIGHT
 10
0.0
 20
0.0
 30
0.0
  9
$PUCSORGFRONT
 10
0.0
 20
0.0
 30
0.0
  9
$PUCSORGBACK
 10
0.0
 20
0.0
 30
0.0
  9
$USERI1
 70
     0
  9
$USERI2
 70
     0
  9
$USERI3
 70
     0
  9
$USERI4
 70
     0
  9
$USERI5
 70
     0
  9
$USERR1
 40
0.0
  9
$USERR2
 40
0.0
  9
$USERR3
 40
0.0
  9
$USERR4
 40
0.0
  9
$USERR5
 40
0.0
  9
$WORLDVIEW
 70
     1
  9
$SHADEDGE
 70
     3
  9
$SHADEDIF
 70
    70
  9
$TILEMODE
 70
     1
  9
$MAXACTVP
 70
    48
  9
$PINSBASE
 10
0.0
 20
0.0
 30
0.0
  9
$PLIMCHECK
 70
     0
  9
$PEXTMIN
 10
1.000000000000000E+20
 20
1.000000000000000E+20
 30
1.000000000000000E+20
  9
$PEXTMAX
 10
-1.000000000000000E+20
 20
-1.000000000000000E+20
 30
-1.000000000000000E+20
  9
$PLIMMIN
 10
0.0
 20
0.0
  9
$PLIMMAX
 10
12.0
 20
9.0
  9
$UNITMODE
 70
     0
  9
$VISRETAIN
 70
     1
  9
$PLINEGEN
 70
     0
  9
$PSLTSCALE
 70
     0
  9
$TREEDEPTH
 70
  3020
  9
$CMLSTYLE
  2
Standard
  9
$CMLJUST
 70
     0
  9
$CMLSCALE
 40
1.0
  9
$PROXYGRAPHICS
 70
     1
  9
$MEASUREMENT
 70
     0
  9
$CELWEIGHT
370
    -1
  9
$ENDCAPS
280
     0
  9
$JOINSTYLE
280
     0
  9
$LWDISPLAY
290
     0
  9
$INSUNITS
 70
     0
  9
$HYPERLINKBASE
  1

  9
$STYLESHEET
  1

  9
$XEDIT
290
     1
  9
$CEPSNTYPE
380
     0
  9
$PSTYLEMODE
290
     1
  9
$FINGERPRINTGUID
  2
{EE56C0ED-EC54-4E2C-8516-6C826AA21773}
  9
$VERSIONGUID
  2
{23E16ABA-4231-4160-8DB0-4A4CEDA67B8E}
  9
$EXTNAMES
290
     1
  9
$PSVPSCALE
 40
0.0
  9
$OLESTARTUP
290
     0
  0
ENDSEC
  0
SECTION
  2
CLASSES
  0
CLASS
  1
ACDBDICTIONARYWDFLT
  2
AcDbDictionaryWithDefault
  3
AutoCAD 2000
 90
        0
280
     0
281
     0
  0
CLASS
  1
ACDBPLACEHOLDER
  2
AcDbPlaceHolder
  3
AutoCAD 2000
 90
        0
280
     0
281
     0
  0
CLASS
  1
LAYOUT
  2
AcDbLayout
  3
AutoCAD 2000
 90
        0
280
     0
281
     0
  0
ENDSEC
  0
SECTION
  2
TABLES
  0
TABLE
  2
VPORT
  5
1E9
330
0
100
AcDbSymbolTable
 70
     3
  0
VPORT
  5
2D3
330
1E9
100
AcDbSymbolTableRecord
100
AcDbViewportTableRecord
  2
*Active
 70
     0
 10
0.0
 20
0.0
 11
1.0
 21
1.0
 12
68.66440889216303
 22
-10.70747402620327
 13
0.0
 23
0.0
 14
0.5
 24
0.5
 15
10.0
 25
10.0
 16
0.0
 26
0.0
 36
1.0
 17
0.0
 27
0.0
 37
0.0
 40
110.8910346546135
 41
1.773831775700934
 42
50.0
 43
0.0
 44
0.0
 50
0.0
 51
0.0
 71
     0
 72
   100
 73
     1
 74
     0
 75
     0
 76
     0
 77
     0
 78
     0
281
     0
 65
     0
110
0.0
120
0.0
130
0.0
111
1.0
121
0.0
131
0.0
112
0.0
122
1.0
132
0.0
 79
     0
146
0.0
  0
ENDTAB
  0
TABLE
  2
LTYPE
  5
1E6
330
0
100
AcDbSymbolTable
 70
     3
  0
LTYPE
  5
1F4
330
1E6
100
AcDbSymbolTableRecord
100
AcDbLinetypeTableRecord
  2
ByBlock
 70
     0
  3

 72
    65
 73
     0
 40
0.0
  0
LTYPE
  5
1F5
330
1E6
100
AcDbSymbolTableRecord
100
AcDbLinetypeTableRecord
  2
ByLayer
 70
     0
  3

 72
    65
 73
     0
 40
0.0
  0
LTYPE
  5
1F6
330
1E6
100
AcDbSymbolTableRecord
100
AcDbLinetypeTableRecord
  2
CONTINUOUS
 70
     0
  3
Solid line
 72
    65
 73
     0
 40
0.0
  0
LTYPE
  5
205
330
1E6
100
AcDbSymbolTableRecord
100
AcDbLinetypeTableRecord
  2
MITTKLEIN
 70
     0
  3
__ . __ . ___ 
 72
    65
 73
     4
 40
0.45
 49
0.25
 74
     0
 49
-0.1
 74
     0
 49
0.0
 74
     0
 49
-0.1
 74
     0
  0
LTYPE
  5
279
330
1E6
100
AcDbSymbolTableRecord
100
AcDbLinetypeTableRecord
  2
VERDECKT
 70
     0
  3
__ __ __ __ __ __ __ __ __ __ __ __ __ __ __ __
 72
    65
 73
     2
 40
0.375
 49
0.25
 74
     0
 49
-0.125
 74
     0
  0
ENDTAB
  0
TABLE
  2
LAYER
  5
1E3
330
0
100
AcDbSymbolTable
 70
     5
  0
LAYER
  5
1F1
330
1E3
100
AcDbSymbolTableRecord
100
AcDbLayerTableRecord
  2
0
 70
     0
 62
     7
  6
CONTINUOUS
370
    -3
390
1F0
  0
LAYER
  5
206
330
1E3
100
AcDbSymbolTableRecord
100
AcDbLayerTableRecord
  2
MITTELLI
 70
     0
 62
     1
  6
MITTKLEIN
370
    -3
390
1F0
  0
LAYER
  5
27A
330
1E3
100
AcDbSymbolTableRecord
100
AcDbLayerTableRecord
  2
KON35
 70
     0
 62
     2
  6
CONTINUOUS
370
    -3
390
1F0
  0
LAYER
  5
27B
330
1E3
100
AcDbSymbolTableRecord
100
AcDbLayerTableRecord
  2
KON25
 70
     0
 62
     1
  6
CONTINUOUS
370
    -3
390
1F0
  0
LAYER
  5
27C
330
1E3
100
AcDbSymbolTableRecord
100
AcDbLayerTableRecord
  2
VERDECKT
 70
     0
 62
     1
  6
VERDECKT
370
    -3
390
1F0
  0
ENDTAB
  0
TABLE
  2
STYLE
  5
1E4
330
0
100
AcDbSymbolTable
 70
     4
  0
STYLE
  5
1F2
330
1E4
100
AcDbSymbolTableRecord
100
AcDbTextStyleTableRecord
  2
Standard
 70
     0
 40
0.0
 41
1.0
 50
0.0
 71
     0
 42
0.2
  3
txt
  4

  0
STYLE
  5
203
330
1E4
100
AcDbSymbolTableRecord
100
AcDbTextStyleTableRecord
  2
Standard
 70
     0
 40
0.0
 41
1.0
 50
0.0
 71
     0
 42
2.5
  3
txt
  4

  0
STYLE
  5
207
330
1E4
100
AcDbSymbolTableRecord
100
AcDbTextStyleTableRecord
  2
Standard
 70
     0
 40
0.0
 41
1.0
 50
0.0
 71
     0
 42
2.5
  3
txt
  4

  0
STYLE
  5
208
330
1E4
100
AcDbSymbolTableRecord
100
AcDbTextStyleTableRecord
  2
SIMPLEX
 70
     0
 40
0.0
 41
0.8
 50
0.0
 71
     0
 42
8.0
  3
simplex
  4

  0
ENDTAB
  0
TABLE
  2
VIEW
  5
1E7
330
0
100
AcDbSymbolTable
 70
     0
  0
ENDTAB
  0
TABLE
  2
UCS
  5
1E8
330
0
100
AcDbSymbolTable
 70
     0
  0
ENDTAB
  0
TABLE
  2
APPID
  5
1EA
330
0
100
AcDbSymbolTable
 70
     1
  0
APPID
  5
1F3
330
1EA
100
AcDbSymbolTableRecord
100
AcDbRegAppTableRecord
  2
ACAD
 70
     0
  0
ENDTAB
  0
TABLE
  2
DIMSTYLE
  5
1EB
330
0
100
AcDbSymbolTable
 70
     2
100
AcDbDimStyleTable
 71
     0
  0
DIMSTYLE
105
209
330
1EB
100
AcDbSymbolTableRecord
100
AcDbDimStyleTableRecord
  2
STANDARD
 70
     0
271
     1
272
     1
279
     2
340
203
  0
DIMSTYLE
105
27D
330
1EB
100
AcDbSymbolTableRecord
100
AcDbDimStyleTableRecord
  2
BEMASS
 70
     0
 41
3.5
 42
0.1
 43
10.0
 44
1.8
 73
     0
 74
     0
 77
     1
 78
     8
140
3.5
141
-1.5
176
   256
177
   256
178
   256
271
     2
272
     2
279
     2
284
     8
285
     8
286
     8
340
1F2
  0
ENDTAB
  0
TABLE
  2
BLOCK_RECORD
  5
1E2
330
0
100
AcDbSymbolTable
 70
     3
  0
BLOCK_RECORD
  5
1FF
330
1E2
100
AcDbSymbolTableRecord
100
AcDbBlockTableRecord
  2
*Model_Space
340
202
  0
BLOCK_RECORD
  5
1FB
330
1E2
100
AcDbSymbolTableRecord
100
AcDbBlockTableRecord
  2
*Paper_Space
340
1FE
  0
BLOCK_RECORD
  5
20C
330
1E2
100
AcDbSymbolTableRecord
100
AcDbBlockTableRecord
  2
$MODEL_SPACE
340
0
  0
BLOCK_RECORD
  5
20F
330
1E2
100
AcDbSymbolTableRecord
100
AcDbBlockTableRecord
  2
$PAPER_SPACE
340
0
  0
ENDTAB
  0
ENDSEC
  0
SECTION
  2
BLOCKS
  0
BLOCK
  5
200
330
1FF
100
AcDbEntity
  8
0
100
AcDbBlockBegin
  2
*Model_Space
 70
     0
 10
0.0
 20
0.0
 30
0.0
  3
*Model_Space
  1

  0
ENDBLK
  5
201
330
1FF
100
AcDbEntity
  8
0
100
AcDbBlockEnd
  0
BLOCK
  5
1FC
330
1FB
100
AcDbEntity
 67
     1
  8
0
100
AcDbBlockBegin
  2
*Paper_Space
 70
     0
 10
0.0
 20
0.0
 30
0.0
  3
*Paper_Space
  1

  0
ENDBLK
  5
1FD
330
1FB
100
AcDbEntity
 67
     1
  8
0
100
AcDbBlockEnd
  0
BLOCK
  5
20D
330
20C
100
AcDbEntity
  8
0
100
AcDbBlockBegin
  2
$MODEL_SPACE
 70
     0
 10
0.0
 20
0.0
 30
0.0
  3
$MODEL_SPACE
  1

  0
ENDBLK
  5
20E
330
20C
100
AcDbEntity
  8
0
100
AcDbBlockEnd
  0
BLOCK
  5
210
330
20F
100
AcDbEntity
  8
0
100
AcDbBlockBegin
  2
$PAPER_SPACE
 70
     0
 10
0.0
 20
0.0
 30
0.0
  3
$PAPER_SPACE
  1

  0
ENDBLK
  5
211
330
20F
100
AcDbEntity
  8
0
100
AcDbBlockEnd
  0
ENDSEC
  0
SECTION
  2
ENTITIES
  0
LINE
  5
212
330
1FF
100
AcDbEntity
  8
0
100
AcDbLine
 10
150.7499999999998
 20
-61.17647058823531
 30
0.0
 11
128.7499999999998
 21
-61.17647058823531
 31
0.0
  0
LINE
  5
213
330
1FF
100
AcDbEntity
  8
0
100
AcDbLine
 10
150.7499999999998
 20
-57.94117647058825
 30
0.0
 11
128.7499999999998
 21
-57.94117647058825
 31
0.0
  0
ARC
  5
214
330
1FF
100
AcDbEntity
  8
0
100
AcDbCircle
 10
131.5036465120275
 20
-60.43025363876433
 30
0.0
 40
3.981511067118523
100
AcDbArc
 50
226.2424368346333
 51
313.7575631653642
  0
LINE
  5
215
330
1FF
100
AcDbEntity
  8
0
100
AcDbLine
 10
151.9067230708195
 20
-43.00000000000011
 30
0.0
 11
127.5814831658392
 21
-43.00000000000011
 31
0.0
  0
LINE
  5
216
330
1FF
100
AcDbEntity
  8
0
100
AcDbLine
 10
154.4999999999998
 20
-45.00000000000006
 30
0.0
 11
124.9999999999998
 21
-45.00000000000006
 31
0.0
  0
LINE
  5
217
330
1FF
100
AcDbEntity
  8
MITTELLI
100
AcDbLine
 10
163.5796672786822
 20
-0.0000000000000639
 30
0.0
 11
-26.23797972559442
 21
-0.0000000000000049
 31
0.0
  0
LINE
  5
21A
330
1FF
100
AcDbEntity
  8
0
100
AcDbLine
 10
124.9999999999998
 20
42.99999999999982
 30
0.0
 11
124.9999999999998
 21
-45.00000000000006
 31
0.0
  0
LINE
  5
21C
330
1FF
100
AcDbEntity
  8
0
100
AcDbLine
 10
128.7499999999998
 20
-57.94117647058825
 30
0.0
 11
128.7499999999998
 21
-45.00000000000006
 31
0.0
  0
LINE
  5
21D
330
1FF
100
AcDbEntity
  8
0
100
AcDbLine
 10
128.7499999999998
 20
-63.30599028602193
 30
0.0
 11
128.7499999999998
 21
-61.17647058823531
 31
0.0
  0
TEXT
  5
225
330
1FF
100
AcDbEntity
  8
0
100
AcDbText
 10
27.36239002451782
 20
-38.71902420317529
 30
0.0
 40
3.2
  1
SMH 88.2.18 M
  7
SIMPLEX
100
AcDbText
  0
LINE
  5
228
330
1FF
100
AcDbEntity
  8
0
100
AcDbLine
 10
157.4999999999997
 20
42.99999999999982
 30
0.0
 11
157.4999999999997
 21
-43.00000000000011
 31
0.0
  0
LINE
  5
229
330
1FF
100
AcDbEntity
  8
0
100
AcDbLine
 10
154.4999999999998
 20
42.99999999999982
 30
0.0
 11
154.4999999999998
 21
-45.00000000000006
 31
0.0
  0
LINE
  5
22A
330
1FF
100
AcDbEntity
  8
0
100
AcDbLine
 10
150.7499999999998
 20
-45.00000000000006
 30
0.0
 11
150.7499999999998
 21
-57.94117647058825
 31
0.0
  0
ARC
  5
22B
330
1FF
100
AcDbEntity
  8
0
100
AcDbCircle
 10
147.9963534879716
 20
-60.43025363876331
 30
0.0
 40
3.981511067119256
100
AcDbArc
 50
226.2424368346448
 51
313.7575631653572
  0
LINE
  5
22C
330
1FF
100
AcDbEntity
  8
0
100
AcDbLine
 10
148.569454888361
 20
-61.17647058823531
 30
0.0
 11
148.569454888361
 21
-57.94117647058825
 31
0.0
  0
LINE
  5
22D
330
1FF
100
AcDbEntity
  8
0
100
AcDbLine
 10
147.9963534879716
 20
-64.41176470588239
 30
0.0
 11
145.2427069759444
 21
-64.41176470588239
 31
0.0
  0
LINE
  5
22E
330
1FF
100
AcDbEntity
  8
0
100
AcDbLine
 10
145.2427069759444
 20
-61.17647058823531
 30
0.0
 11
145.2427069759444
 21
-63.30599028602235
 31
0.0
  0
LINE
  5
22F
330
1FF
100
AcDbEntity
  8
0
100
AcDbLine
 10
145.2427069759444
 20
-64.41176470588239
 30
0.0
 11
134.2572930240552
 21
-64.41176470588239
 31
0.0
  0
ARC
  5
230
330
1FF
100
AcDbEntity
  8
0
100
AcDbCircle
 10
139.7499999999996
 20
-50.21693146169013
 30
0.0
 40
14.19483324419222
100
AcDbArc
 50
247.2350767444407
 51
292.7649232555592
  0
LINE
  5
231
330
1FF
100
AcDbEntity
  8
0
100
AcDbLine
 10
130.9305451116385
 20
-61.17647058823531
 30
0.0
 11
130.9305451116385
 21
-57.94117647058825
 31
0.0
  0
LINE
  5
232
330
1FF
100
AcDbEntity
  8
0
100
AcDbLine
 10
134.2572930240552
 20
-64.41176470588239
 30
0.0
 11
131.5036465120275
 21
-64.41176470588239
 31
0.0
  0
LINE
  5
233
330
1FF
100
AcDbEntity
  8
0
100
AcDbLine
 10
150.7499999999998
 20
-63.30599028602268
 30
0.0
 11
150.7499999999998
 21
-61.17647058823531
 31
0.0
  0
ARC
  5
234
330
1FF
100
AcDbEntity
  8
0
100
AcDbCircle
 10
159.4999999999997
 20
-36.12089919145478
 30
0.0
 40
0.5
100
AcDbArc
 50
0.0
 51
86.56636963755053
  0
LINE
  5
235
330
1FF
100
AcDbEntity
  8
0
100
AcDbLine
 10
159.9999999999998
 20
-39.87910080854538
 30
0.0
 11
159.9999999999998
 21
-38.50000000000004
 31
0.0
  0
LINE
  5
236
330
1FF
100
AcDbEntity
  8
0
100
AcDbLine
 10
159.9999999999998
 20
-36.12089919145478
 30
0.0
 11
159.9999999999998
 21
-37.50000000000005
 31
0.0
  0
ARC
  5
237
330
1FF
100
AcDbEntity
  8
0
100
AcDbCircle
 10
159.4999999999997
 20
-39.87910080854538
 30
0.0
 40
0.5
100
AcDbArc
 50
273.4336303624493
 51
0.0
  0
LINE
  5
238
330
1FF
100
AcDbEntity
  8
0
100
AcDbLine
 10
158.9999999999998
 20
-38.50000000000004
 30
0.0
 11
158.9999999999998
 21
-37.50000000000005
 31
0.0
  0
LINE
  5
239
330
1FF
100
AcDbEntity
  8
0
100
AcDbLine
 10
159.5299461453637
 20
-40.37820323127824
 30
0.0
 11
157.4999999999997
 21
-40.50000000000005
 31
0.0
  0
LINE
  5
23A
330
1FF
100
AcDbEntity
  8
0
100
AcDbLine
 10
159.9999999999998
 20
-38.50000000000004
 30
0.0
 11
158.9999999999998
 21
-38.50000000000004
 31
0.0
  0
LINE
  5
23B
330
1FF
100
AcDbEntity
  8
0
100
AcDbLine
 10
159.9999999999998
 20
-37.50000000000005
 30
0.0
 11
158.9999999999998
 21
-37.50000000000005
 31
0.0
  0
LINE
  5
23C
330
1FF
100
AcDbEntity
  8
0
100
AcDbLine
 10
157.4999999999997
 20
-43.00000000000011
 30
0.0
 11
154.4999999999998
 21
-43.00000000000011
 31
0.0
  0
LINE
  5
23D
330
1FF
100
AcDbEntity
  8
0
100
AcDbLine
 10
159.5299461453637
 20
-35.62179676872195
 30
0.0
 11
157.4999999999997
 21
-35.50000000000005
 31
0.0
  0
ARC
  5
23E
330
1FF
100
AcDbEntity
  8
0
100
AcDbCircle
 10
159.4999999999997
 20
39.87910080854515
 30
0.0
 40
0.5
100
AcDbArc
 50
0.0
 51
86.56636963755053
  0
LINE
  5
23F
330
1FF
100
AcDbEntity
  8
0
100
AcDbLine
 10
159.9999999999998
 20
36.1208991914546
 30
0.0
 11
159.9999999999998
 21
37.49999999999988
 31
0.0
  0
ARC
  5
240
330
1FF
100
AcDbEntity
  8
0
100
AcDbCircle
 10
159.4999999999997
 20
36.1208991914546
 30
0.0
 40
0.5
100
AcDbArc
 50
273.4336303624493
 51
0.0
  0
LINE
  5
241
330
1FF
100
AcDbEntity
  8
0
100
AcDbLine
 10
159.9999999999998
 20
39.87910080854515
 30
0.0
 11
159.9999999999998
 21
38.49999999999992
 31
0.0
  0
LINE
  5
242
330
1FF
100
AcDbEntity
  8
0
100
AcDbLine
 10
158.9999999999998
 20
38.49999999999992
 30
0.0
 11
158.9999999999998
 21
37.49999999999992
 31
0.0
  0
LINE
  5
243
330
1FF
100
AcDbEntity
  8
0
100
AcDbLine
 10
159.5299461453637
 20
35.6217967687217
 30
0.0
 11
157.4999999999997
 21
35.49999999999988
 31
0.0
  0
LINE
  5
244
330
1FF
100
AcDbEntity
  8
0
100
AcDbLine
 10
159.9999999999998
 20
37.49999999999992
 30
0.0
 11
158.9999999999998
 21
37.49999999999992
 31
0.0
  0
LINE
  5
245
330
1FF
100
AcDbEntity
  8
0
100
AcDbLine
 10
159.9999999999998
 20
38.49999999999992
 30
0.0
 11
158.9999999999998
 21
38.49999999999992
 31
0.0
  0
LINE
  5
246
330
1FF
100
AcDbEntity
  8
0
100
AcDbLine
 10
159.5299461453637
 20
40.37820323127805
 30
0.0
 11
157.4999999999997
 21
40.49999999999992
 31
0.0
  0
LINE
  5
2BC
330
1FF
100
AcDbEntity
  8
0
100
AcDbLine
 10
108.9999999999997
 20
-43.00000000000006
 30
0.0
 11
108.9999999999997
 21
42.99999999999982
 31
0.0
  0
LINE
  5
2BE
330
1FF
100
AcDbEntity
  8
0
100
AcDbLine
 10
12.99999999999966
 20
-43.00000000000017
 30
0.0
 11
12.99999999999966
 21
42.99999999999982
 31
0.0
  0
LINE
  5
2BF
330
1FF
100
AcDbEntity
  8
0
100
AcDbLine
 10
22.99999999999977
 20
-43.00000000000006
 30
0.0
 11
22.99999999999977
 21
42.99999999999982
 31
0.0
  0
LINE
  5
2C0
330
1FF
100
AcDbEntity
  8
0
100
AcDbLine
 10
8.999999999999673
 20
-36.50000000000015
 30
0.0
 11
8.999999999999658
 21
36.49999999999986
 31
0.0
  0
LINE
  5
2C1
330
1FF
100
AcDbEntity
  8
0
100
AcDbLine
 10
124.9999999999998
 20
-43.00000000000011
 30
0.0
 11
22.99999999999977
 21
-43.00000000000008
 31
0.0
  0
LINE
  5
2C2
330
1FF
100
AcDbEntity
  8
0
100
AcDbLine
 10
12.99999999999966
 20
-43.00000000000017
 30
0.0
 11
22.99999999999977
 21
-43.00000000000006
 31
0.0
  0
LINE
  5
2C3
330
1FF
100
AcDbEntity
  8
0
100
AcDbLine
 10
8.999999999999673
 20
12.49999999999994
 30
0.0
 11
-17.00000000000032
 21
12.5
 31
0.0
  0
LINE
  5
2C4
330
1FF
100
AcDbEntity
  8
0
100
AcDbLine
 10
8.999999999999687
 20
-12.50000000000002
 30
0.0
 11
-17.00000000000027
 21
-12.50000000000002
 31
0.0
  0
LINE
  5
2C5
330
1FF
100
AcDbEntity
  8
VERDECKT
100
AcDbLine
 10
-17.50000000000032
 20
8.499999999999971
 30
0.0
 11
-17.50000000000027
 21
-8.5
 31
0.0
  0
LINE
  5
2C6
330
1FF
100
AcDbEntity
  8
0
100
AcDbLine
 10
-18.50000000000032
 20
-11.0
 30
0.0
 11
-18.49999999999992
 21
11.00000000000039
 31
0.0
  0
LINE
  5
2C7
330
1FF
100
AcDbEntity
  8
0
100
AcDbLine
 10
-17.00000000000032
 20
12.5
 30
0.0
 11
-17.00000000000027
 21
-12.50000000000002
 31
0.0
  0
LINE
  5
2C8
330
1FF
100
AcDbEntity
  8
KON25
100
AcDbLine
 10
-18.50000000000027
 20
-9.5
 30
0.0
 11
-17.50000000000027
 21
-8.5
 31
0.0
  0
LINE
  5
2C9
330
1FF
100
AcDbEntity
  8
0
100
AcDbLine
 10
-18.50000000000032
 20
-11.0
 30
0.0
 11
-17.00000000000027
 21
-12.50000000000002
 31
0.0
  0
LINE
  5
2CA
330
1FF
100
AcDbEntity
  8
KON25
100
AcDbLine
 10
-17.50000000000032
 20
8.499999999999971
 30
0.0
 11
-18.50000000000032
 21
9.499999999999971
 31
0.0
  0
LINE
  5
2CB
330
1FF
100
AcDbEntity
  8
0
100
AcDbLine
 10
-18.49999999999992
 20
11.00000000000039
 30
0.0
 11
-17.00000000000032
 21
12.5
 31
0.0
  0
LINE
  5
2CC
330
1FF
100
AcDbEntity
  8
0
100
AcDbLine
 10
12.99999999999966
 20
-36.50000000000017
 30
0.0
 11
8.999999999999673
 21
-36.50000000000015
 31
0.0
  0
LINE
  5
2CD
330
1FF
100
AcDbEntity
  8
0
100
AcDbLine
 10
12.99999999999977
 20
36.49999999999983
 30
0.0
 11
12.99999999999977
 21
42.99999999999982
 31
0.0
  0
LINE
  5
2CE
330
1FF
100
AcDbEntity
  8
0
100
AcDbLine
 10
12.99999999999977
 20
36.49999999999983
 30
0.0
 11
8.999999999999658
 21
36.49999999999986
 31
0.0
  0
LINE
  5
2CF
330
1FF
100
AcDbEntity
  8
0
100
AcDbLine
 10
12.99999999999966
 20
42.99999999999982
 30
0.0
 11
157.4999999999997
 21
42.99999999999982
 31
0.0
  0
LINE
  5
2D0
330
1FF
100
AcDbEntity
  8
VERDECKT
100
AcDbLine
 10
-17.50000000000032
 20
8.499999999999971
 30
0.0
 11
157.4999999999997
 21
8.499999999999971
 31
0.0
  0
LINE
  5
2D1
330
1FF
100
AcDbEntity
  8
VERDECKT
100
AcDbLine
 10
-17.50000000000027
 20
-8.5
 30
0.0
 11
157.4999999999997
 21
-8.5
 31
0.0
  0
ENDSEC
  0
SECTION
  2
OBJECTS
  0
DICTIONARY
  5
1ED
330
0
100
AcDbDictionary
281
     1
  3
ACAD_GROUP
350
1EE
  3
ACAD_PLOTSTYLENAME
350
1EF
  3
ACAD_MLINESTYLE
350
1F7
  3
ACAD_PLOTSETTINGS
350
1F9
  3
ACAD_LAYOUT
350
1FA
  0
DICTIONARY
  5
1EE
102
{ACAD_REACTORS
330
1ED
102
}
330
1ED
100
AcDbDictionary
281
     1
  0
ACDBDICTIONARYWDFLT
  5
1EF
102
{ACAD_REACTORS
330
1ED
102
}
330
1ED
100
AcDbDictionary
281
     1
  3
Normal
350
1F0
100
AcDbDictionaryWithDefault
340
1F0
  0
DICTIONARY
  5
1F7
102
{ACAD_REACTORS
330
1ED
102
}
330
1ED
100
AcDbDictionary
281
     1
  3
Standard
350
1F8
  0
DICTIONARY
  5
1F9
102
{ACAD_REACTORS
330
1ED
102
}
330
1ED
100
AcDbDictionary
281
     1
  0
DICTIONARY
  5
1FA
102
{ACAD_REACTORS
330
1ED
102
}
330
1ED
100
AcDbDictionary
281
     1
  3
Layout1
350
1FE
  3
Model
350
202
  0
ACDBPLACEHOLDER
  5
1F0
102
{ACAD_REACTORS
330
1EF
102
}
330
1EF
  0
MLINESTYLE
  5
1F8
102
{ACAD_REACTORS
330
1F7
102
}
330
1F7
100
AcDbMlineStyle
  2
STANDARD
 70
     0
  3

 62
   256
 51
90.0
 52
90.0
 71
     2
 49
0.5
 62
   256
  6
BYLAYER
 49
-0.5
 62
   256
  6
BYLAYER
  0
LAYOUT
  5
1FE
102
{ACAD_REACTORS
330
1FA
102
}
330
1FA
100
AcDbPlotSettings
  1

  2
C:\Programme\ACAD2000\plotters\Panasonic KX-P5410.pc3
  4

  6

 40
0.0
 41
0.0
 42
0.0
 43
0.0
 44
0.0
 45
0.0
 46
0.0
 47
0.0
 48
0.0
 49
0.0
140
0.0
141
0.0
142
1.0
143
1.0
 70
   688
 72
     0
 73
     0
 74
     5
  7
C:\Programme\ACAD2000\Plot Styles\stölzl.ctb
 75
    16
147
1.0
148
0.0
149
0.0
100
AcDbLayout
  1
Layout1
 70
     0
 71
     1
 10
0.0
 20
0.0
 11
12.0
 21
9.0
 12
0.0
 22
0.0
 32
0.0
 14
1.000000000000000E+20
 24
1.000000000000000E+20
 34
1.000000000000000E+20
 15
-1.000000000000000E+20
 25
-1.000000000000000E+20
 35
-1.000000000000000E+20
146
0.0
 13
0.0
 23
0.0
 33
0.0
 16
1.0
 26
0.0
 36
0.0
 17
0.0
 27
1.0
 37
0.0
 76
     0
330
1FB
  0
LAYOUT
  5
202
102
{ACAD_REACTORS
330
1FA
102
}
330
1FA
100
AcDbPlotSettings
  1

  2
C:\Programme\ACAD2000\plotters\Panasonic KX-P5410.pc3
  4

  6

 40
0.0
 41
0.0
 42
0.0
 43
0.0
 44
0.0
 45
0.0
 46
0.0
 47
0.0
 48
0.0
 49
0.0
140
0.0
141
0.0
142
1.0
143
1.0
 70
  1712
 72
     0
 73
     0
 74
     0
  7
C:\Programme\ACAD2000\Plot Styles\stölzl.ctb
 75
     0
147
1.0
148
0.0
149
0.0
100
AcDbLayout
  1
Model
 70
     1
 71
     0
 10
0.0
 20
0.0
 11
12.0
 21
9.0
 12
0.0
 22
0.0
 32
0.0
 14
0.0
 24
0.0
 34
0.0
 15
0.0
 25
0.0
 35
0.0
146
0.0
 13
0.0
 23
0.0
 33
0.0
 16
1.0
 26
0.0
 36
0.0
 17
0.0
 27
1.0
 37
0.0
 76
     0
330
1FF
  0
ENDSEC
  0
EOF
